Tablatuur (tabs): Notatie deel 1

In deze blog zal ik het hebben over gitaarnotatie en dan met name in Tablatuur (tabs) zoals je ze voornamelijk op het internet krijgt.
Dit na aanleiding van een aantal vragen van leerlingen.

Als je zelf op zoek gaat naar tabs op het internet kom je al gauw op sites als: wwww.tabcrawler.com of ultimate-guitar.com.
De partijen die je krijgt zien er dan als volgt uit:

Nummer: BY THE WAY – Red Hot Chili Peppers

Intro....
 e--------------------------------|----------------------------|
 B--------------------------------|----------------------------|
 G--------------------------------|----------------------------|
 D---10-10-10-10-10-10-10-10------|--10-10-10-10-10-10-10-10---|
 A----8--8--8--8--8--8--8--8------|---7--7--7--7--7--7--7--7---|
 E--------------------------------|----------------------------|
 e---------------------------|----------------------------|
 B---------------------------|----------------------------|
 G---------------------------|----------------------------|
 D----2--2--2--2--2--2--2--2-|---2--2--2--2--2--2--2--2---|
 A----0--0--0--0--0--0--0--0-|---0--0--0--0--0--0--0--0---|
 E---------------------------|----------------------------|

Wat je hier dus ziet staan zijn de zogenaamde tabs. Compleet anders dan het notenschrift. Bij tabs zie je de 6 snaren van de gitaar staan met daarop cijfers. De cijfers zijn de vakjes op de gitaar. In het intro van dit lied speel je dus het 8e vakje op de A-snaar en het 10e vakje op de D-snaar tegelijk aan. Dit omdat de cijfers boven elkaar staan. De rest van de snaren moet je niet aanslaan aangezien hier geen cijfers bij staan!

Als je kijkt naar de onderstaande tab, zie je dat er maar 1 noot staat. Namelijk de noot op het 8e vakje van de B-snaar. Je moet dan ook alleen deze noot aanslaan.

Pas op: het grote nadeel van tabs is dat er geen ritme staat genoteerd. Als je partijen aan een gitarist geeft die dit nummer nog nooit heeft gespeeld/gehoord, zorg er dan voor dat je zelf het ritme erbij noteert!!!!

 e)----
 B)-8--
 G)----
 D)----
 A)----
 E)----

In het onderstaande voorbeeld staat een G-Akkoord genoteerd. Zoals je nu kunt zien staan op alle snaren een cijfer genoteerd en moet je dus ook alle snaren aanslaan.

 e)-3--
 B)-3--
 G)-0--
 D)-0--
 A)-2--
 E)-3--

Het volgende voorbeeld geeft een powerchord weer. In dit geval het G5 akkoord. Je ziet dat alleen op de E-, A- en D-snaar een cijfer staat genoteerd. De rest van de snaar sla je dus niet aan.

 e)----
 B)----
 G)----
 D)-5--
 A)-5--
 E)-3--

Het komt ook voor dat er 2 noten worden gespeeld met een snaar ertussen. Hieronder staat zo’n voorbeeld. Hier wordt een octaaf greep gespeeld. Alleen de A- en G-snaar mogen aangeslagen worden. De andere snaren dienen gedempt te worden, dit noemen we ‘muten’.
Dit kun je doen door je middel- of ringvinger op de overige snaren te leggen. Of door je vingers zo op de snaren te zetten dat bijvoorbeeld je wijsvinger heel licht de E-snaar aanraakt zodat deze gedempt wordt.

 e)-------
 B)-------
 G)-7--9-- Speel deze noten met je pink (4e vinger)
 D)-------
 A)-5--7-- Speel deze noten met je wijsvinger (1e vinger)
 E)-------

In het volgende deel over Notatie zal ik het hebben over de volgende technieken met hun notiatie: Hammer-on, Pull-off, bending, vibrato en slides.

Mocht je zelf een vraag hebben laat dan even een reactie achter! Ik beantwoord de vragen zo snel mogelijk!

1 ping

  1. […] « Tablatuur (tabs): Notatie deel 1 […]

Geef een reactie

Your email address will not be published.

Deze website gebruikt Akismet om spam te verminderen. Bekijk hoe je reactie-gegevens worden verwerkt.